Teoman - Sevdim Seni Tab Akoru

Teoman - Sevdim Seni Tab Gitar Akoru

 C#

Sevdim seni bir kere baskasini sevemem

F#m

Deli diyorlar bana desinler degisemem

C# G# C#

Desinler degisemem desinler degisemem
C# F#m

Daha yolun basindasin degisirsin diyorlar

B G#

Oysa sana çikiyor bildigim bütün yollar
C# B

Sevgi anlasmak degildir nedensiz de sevilir

A G# C#

Bazen küçük bir an için ömür bile verilir
E----7-----------------------------------9-7---------------

b--9---10-9--7--9~10~9-----10-9-7---7--------10-7-9~10~9---

g---------------------------------9------------------------

D----------------------------------------------------------

A----------------------------------------------------------

E----------------------------------------------------------
E----7-----------------------------------------------------

b--9---10-9--7--9~10~9-----10-9-7---7----------------------

g---------------------------------9-------8-9-8--6--5--6---

D----------------------------------------------------------

A----------------------------------------------------------

E----------------------------------------------------------
C#-----> x46654

F#m----> 244222

G#-----> 466544

A------> 002220

B------> 4442


Sevdim Seni Tab Şarkısını Söyleyen Sanatçı = Teoman
Sevdim Seni Tab Akor, Sevdim Seni Tab Gitar Akoru, Sevdim Seni Tab tab, Sevdim Seni Tab sözleri oku
Etiketler :

Teoman - Sevdim Seni Tab Akor

Tarih: 2013-04-08 16:00:03

Kim Söylüyor: Teoman
Sevdim Seni Tab Okunma : 384
reklam alan
Bumerang - Yazarkafe